  0
SECTION
  2
HEADER
  9
$ACADVER
  1
AC1009
  9
$INSBASE
 10
0.0
 20
0.0
 30
0.0
  9
$EXTMIN
 10
24.171434175867191
 20
18.10396629214199
 30
-0.0000000000033395
  9
$EXTMAX
 10
689.99999999999955
 20
181.8960337078575
 30
0.0000000000041334
  9
$LIMMIN
 10
0.0
 20
0.0
  9
$LIMMAX
 10
2025.0
 20
1204.0
  9
$ORTHOMODE
 70
     0
  9
$REGENMODE
 70
     1
  9
$FILLMODE
 70
     1
  9
$QTEXTMODE
 70
     0
  9
$MIRRTEXT
 70
     0
  9
$DRAGMODE
 70
     2
  9
$LTSCALE
 40
1.0
  9
$OSMODE
 70
    37
  9
$ATTMODE
 70
     1
  9
$TEXTSIZE
 40
3.0
  9
$TRACEWID
 40
1.0
  9
$TEXTSTYLE
  7
TEXT3
  9
$CLAYER
  8
外形
  9
$CELTYPE
  6
BYLAYER
  9
$CECOLOR
 62
   256
  9
$DIMSCALE
 40
1.0
  9
$DIMASZ
 40
3.0
  9
$DIMEXO
 40
0.625
  9
$DIMDLI
 40
3.75
  9
$DIMRND
 40
0.0
  9
$DIMDLE
 40
0.0
  9
$DIMEXE
 40
1.25
  9
$DIMTP
 40
0.0
  9
$DIMTM
 40
0.0
  9
$DIMTXT
 40
3.5
  9
$DIMCEN
 40
3.0
  9
$DIMTSZ
 40
0.0
  9
$DIMTOL
 70
     0
  9
$DIMLIM
 70
     0
  9
$DIMTIH
 70
     0
  9
$DIMTOH
 70
     1
  9
$DIMSE1
 70
     0
  9
$DIMSE2
 70
     0
  9
$DIMTAD
 70
     1
  9
$DIMZIN
 70
     8
  9
$DIMBLK
  1
OPEN30
  9
$DIMASO
 70
     1
  9
$DIMSHO
 70
     1
  9
$DIMPOST
  1

  9
$DIMAPOST
  1

  9
$DIMALT
 70
     0
  9
$DIMALTD
 70
     3
  9
$DIMALTF
 40
0.03937007874016
  9
$DIMLFAC
 40
1.0
  9
$DIMTOFL
 70
     1
  9
$DIMTVP
 40
0.0
  9
$DIMTIX
 70
     0
  9
$DIMSOXD
 70
     0
  9
$DIMSAH
 70
     0
  9
$DIMBLK1
  1

  9
$DIMBLK2
  1

  9
$DIMSTYLE
  2
KUMA
  9
$DIMCLRD
 70
     0
  9
$DIMCLRE
 70
     0
  9
$DIMCLRT
 70
     0
  9
$DIMTFAC
 40
1.0
  9
$DIMGAP
 40
0.625
  9
$LUNITS
 70
     2
  9
$LUPREC
 70
     2
  9
$SKETCHINC
 40
1.0
  9
$FILLETRAD
 40
2.0
  9
$AUNITS
 70
     0
  9
$AUPREC
 70
     0
  9
$MENU
  1
.
  9
$ELEVATION
 40
0.0
  9
$PELEVATION
 40
0.0
  9
$THICKNESS
 40
0.0
  9
$LIMCHECK
 70
     0
  9
$BLIPMODE
 70
     0
  9
$CHAMFERA
 40
3.0
  9
$CHAMFERB
 40
3.0
  9
$SKPOLY
 70
     0
  9
$TDCREATE
 40
2453795.6118381019
  9
$TDUPDATE
 40
2456512.813406215
  9
$TDINDWG
 40
8.7252899999999993
  9
$TDUSRTIMER
 40
8.7252883680999993
  9
$USRTIMER
 70
     1
  9
$ANGBASE
 50
0.0
  9
$ANGDIR
 70
     0
  9
$PDMODE
 70
     0
  9
$PDSIZE
 40
0.0
  9
$PLINEWID
 40
0.0
  9
$COORDS
 70
     1
  9
$SPLFRAME
 70
     0
  9
$SPLINETYPE
 70
     6
  9
$SPLINESEGS
 70
     8
  9
$ATTDIA
 70
     0
  9
$ATTREQ
 70
     1
  9
$HANDLING
 70
     1
  9
$HANDSEED
  5
134A2
  9
$SURFTAB1
 70
     6
  9
$SURFTAB2
 70
     6
  9
$SURFTYPE
 70
     6
  9
$SURFU
 70
     6
  9
$SURFV
 70
     6
  9
$UCSNAME
  2

  9
$UCSORG
 10
0.0
 20
0.0
 30
0.0
  9
$UCSXDIR
 10
1.0
 20
0.0
 30
0.0
  9
$UCSYDIR
 10
0.0
 20
1.0
 30
0.0
  9
$PUCSNAME
  2

  9
$PUCSORG
 10
0.0
 20
0.0
 30
0.0
  9
$PUCSXDIR
 10
1.0
 20
0.0
 30
0.0
  9
$PUCSYDIR
 10
0.0
 20
1.0
 30
0.0
  9
$USERI1
 70
     0
  9
$USERI2
 70
     0
  9
$USERI3
 70
     0
  9
$USERI4
 70
     0
  9
$USERI5
 70
     0
  9
$USERR1
 40
0.0
  9
$USERR2
 40
0.0
  9
$USERR3
 40
0.0
  9
$USERR4
 40
0.0
  9
$USERR5
 40
0.0
  9
$WORLDVIEW
 70
     1
  9
$SHADEDGE
 70
     3
  9
$SHADEDIF
 70
    70
  9
$TILEMODE
 70
     1
  9
$MAXACTVP
 70
    64
  9
$PLIMCHECK
 70
     0
  9
$PEXTMIN
 10
0.0
 20
0.0
 30
0.0
  9
$PEXTMAX
 10
0.0
 20
0.0
 30
0.0
  9
$PLIMMIN
 10
0.0
 20
0.0
  9
$PLIMMAX
 10
12.0
 20
9.0
  9
$UNITMODE
 70
     0
  9
$VISRETAIN
 70
     1
  9
$PLINEGEN
 70
     0
  9
$PSLTSCALE
 70
     1
  0
ENDSEC
  0
SECTION
  2
TABLES
  0
TABLE
  2
VPORT
 70
     1
  0
VPORT
  2
*ACTIVE
 70
     0
 10
0.0
 20
0.0
 11
1.0
 21
1.0
 12
-408.46519164463911
 22
-6.193134713921097
 13
0.0
 23
0.0
 14
1.0
 24
1.0
 15
10.0
 25
10.0
 16
0.0
 26
-8.9585190993965966
 36
513.23321547286241
 17
761.23747713215812
 27
99.093817619006785
 37
-173.73867977507879
 40
582.1539021318705
 41
1.628643852978453
 42
50.0
 43
0.0
 44
0.0
 50
0.0
 51
0.0
 71
     0
 72
 20000
 73
     1
 74
     3
 75
     0
 76
     1
 77
     0
 78
     0
  0
ENDTAB
  0
TABLE
  2
LTYPE
 70
    20
  0
LTYPE
  2
CONTINUOUS
 70
     0
  3
Solid line
 72
    65
 73
     0
 40
0.0
  0
LTYPE
  2
AM_ISO02W050
 70
     0
  3
__ __ __ __ __ __ __ __ __ __ __ __ __ __ __
 72
    65
 73
     2
 40
7.5
 49
6.0
 49
-1.5
  0
LTYPE
  2
AM_ISO08W050
 70
     0
  3
____ . ____ . ____ . ____ . ____ . ____ . ____
 72
    65
 73
     4
 40
18.0
 49
12.0
 49
-1.5
 49
3.0
 49
-1.5
  0
LTYPE
  2
AM_ISO09W050
 70
     0
  3
_____ . . _____ . . _____ . . ____ .. ____
 72
    65
 73
     6
 40
22.5
 49
12.0
 49
-1.5
 49
3.0
 49
-1.5
 49
3.0
 49
-1.5
  0
LTYPE
  2
AMCONSTR
 70
     0
  3
_______________________
 72
    65
 73
     2
 40
9999.0
 49
9999.0
 49
0.0
  0
LTYPE
  2
AM_ISO08W050X2
 70
     0
  3
__ . __ . __ . __ . __ . __
 72
    65
 73
     4
 40
9.0
 49
6.0
 49
-0.75
 49
1.5
 49
-0.75
  0
LTYPE
  2
AM_ISO02W050X2
 70
     0
  3
 _ _ _ _ _ _ _ _ _ _ _ _
 72
    65
 73
     2
 40
3.75
 49
3.0
 49
-0.75
  0
LTYPE
  2
AMZIGZAG
 70
     0
  3
/\/-/\/-/\/-/\/-/\/-/\/
 72
    65
 73
     2
 40
11.0001
 49
0.0001
 49
-11.0
  0
LTYPE
  2
ACISOWELD
 70
     0
  3
_ _ _ _ _
 72
    65
 73
     2
 40
2.0
 49
2.0
 49
-1.0
  0
LTYPE
  2
ACISOTGB
 70
     0
  3
__ . . __ . .
 72
    65
 73
     6
 40
9.0
 49
4.0
 49
-1.0
 49
1.0
 49
-1.0
 49
1.0
 49
-1.0
  0
LTYPE
  2
ACISOTGL
 70
     0
  3
_ _ _ _ _
 72
    65
 73
     2
 40
3.0
 49
2.0
 49
-1.0
  0
ENDTAB
  0
TABLE
  2
LAYER
 70
     8
  0
LAYER
  2
0
 70
     0
 62
     7
  6
CONTINUOUS
  0
LAYER
  2
外形
 70
     0
 62
     7
  6
CONTINUOUS
  0
LAYER
  2
DEFPOINTS
 70
     0
 62
     7
  6
CONTINUOUS
  0
ENDTAB
  0
TABLE
  2
STYLE
 70
     8
  0
STYLE
  2
STANDARD
 70
     0
 40
0.0
 41
1.0
 50
0.0
 71
     0
 42
2.5
  3
txt
  4

  0
STYLE
  2
TEXT3
 70
     0
 40
3.0
 41
1.0
 50
0.0
 71
     0
 42
3.0
  3
txt
  4

  0
STYLE
  2
TEXT35
 70
     0
 40
3.5
 41
1.0
 50
0.0
 71
     0
 42
3.5
  3
txt
  4

  0
STYLE
  2

 70
     1
 40
0.0
 41
1.0
 50
0.0
 71
     0
 42
3.0
  3
genltshp.shx
  4

  0
STYLE
  2
ACISOGDT
 70
     0
 40
0.0
 41
1.0
 50
0.0
 71
     0
 42
3.0
  3
amgdt.shx
  4

  0
ENDTAB
  0
TABLE
  2
VIEW
 70
     2
  0
ENDTAB
  0
TABLE
  2
UCS
 70
     0
  0
ENDTAB
  0
TABLE
  2
APPID
 70
    40
  0
APPID
  2
ACAD
 70
     0
  0
APPID
  2
MCAD_NO_VIS
 70
     0
  0
APPID
  2
ACAD_TEMP_GRAPHIC
 70
     0
  0
APPID
  2
AD_DRAW
 70
     0
  0
APPID
  2
ACATTRIBSERVICES
 70
     0
  0
APPID
  2
DESIGNERASSEMBLIES
 70
     0
  0
APPID
  2
ACADM_DIM_EDIT
 70
     0
  0
APPID
  2
AMDT_DM_ADJ
 70
     0
  0
APPID
  2
ACAD_DSTYLE_DIMJAG
 70
     0
  0
APPID
  2
ACAD_DSTYLE_DIMBREAK
 70
     0
  0
APPID
  2
ACAECLAYERSTANDARD
 70
     0
  0
APPID
  2
GENIUS_GENSCREG_15
 70
     0
  0
APPID
  2
GENIUS_GENODEF_13
 70
     0
  0
APPID
  2
GENIUS_GENOBJ-N-SDF_13
 70
     0
  0
APPID
  2
ACAD_PSEXT
 70
     0
  0
APPID
  2
ACADSTRINGINFO
 70
     0
  0
APPID
  2
ACAD_DSTYLE_DIMRADIAL_EXTENSION
 70
     0
  0
APPID
  2
ACAD_EXEMPT_FROM_CAD_STANDARDS
 70
     0
  0
APPID
  2
GENIUS_GENFIL_13
 70
     0
  0
APPID
  2
GENIUS_GENOBJ-N-CHA_13
 70
     0
  0
APPID
  2
GENIUS_GENOBJ-N-FIL_13
 70
     0
  0
APPID
  2
ACAD_DSTYLE_DIMINSPECT
 70
     0
  0
APPID
  2
GENIUS_GENDTOL_13
 70
     0
  0
APPID
  2
GENIUS_GENREC_14
 70
     0
  0
APPID
  2
GENIUS_GENOBJ-N-REC_13
 70
     0
  0
APPID
  2
ACAD_NAV_VCDISPLAY
 70
     0
  0
APPID
  2
DCO15
 70
     0
  0
APPID
  2
ACAD_MLEADERVER
 70
     0
  0
APPID
  2
ACAD_DSTYLE_DIMJOGGED_JOGA
 70
     0
  0
APPID
  2
GENIUS_GENOBJ-N-CEN_13
 70
     0
  0
APPID
  2
GENIUS_GENCEN_19
 70
     0
  0
APPID
  2
ACAD_DSTYLE_DIMANGULAR_EXT
 70
     0
  0
APPID
  2
GENIUS_GENDIMSH_14
 70
     0
  0
APPID
  2
GENIUS_GENOBJ-N-HTC_13
 70
     0
  0
APPID
  2
GENIUS_GENHATCH_13
 70
     0
  0
APPID
  2
ACAD_DIMASSOC_CALC_DIMLFAC
 70
     0
  0
APPID
  2
ACAD_DIMASSOC_DIMLFAC
 70
     0
  0
APPID
  2
ACAD_DIMASSOC_OVERRIDDEN_D
 70
     0
  0
APPID
  2
ACAD_DSTYLE_DIMTALN
 70
     0
  0
APPID
  2
ACADANNOMONITORALERTICONDI
 70
     0
  0
ENDTAB
  0
TABLE
  2
DIMSTYLE
 70
    13
  0
DIMSTYLE
  2
KUMA
 70
     0
  3

  4

  5
OPEN30
  6

  7

 40
1.0
 41
3.0
 42
0.625
 43
3.75
 44
1.25
 45
0.0
 46
0.0
 47
0.0
 48
0.0
140
3.5
141
3.0
142
0.0
143
0.03937007874016
144
1.0
145
0.0
146
1.0
147
0.625
 71
     0
 72
     0
 73
     0
 74
     1
 75
     0
 76
     0
 77
     1
 78
     8
170
     0
171
     3
172
     1
173
     0
174
     0
175
     0
176
     0
177
     0
178
     0
  0
DIMSTYLE
  2
AM_ISO
 70
     0
  3

  4
"
  5

  6

  7

 40
1.0
 41
3.5
 42
1.0
 43
10.0
 44
1.0
 45
0.0
 46
0.0
 47
0.1
 48
0.1
140
3.5
141
0.0
142
0.0
143
0.0393701
144
1.0
145
0.0
146
0.71
147
1.5
 71
     0
 72
     0
 73
     0
 74
     0
 75
     0
 76
     0
 77
     1
 78
     8
170
     0
171
     2
172
     1
173
     0
174
     0
175
     0
176
   256
177
   256
178
     2
  0
DIMSTYLE
  2
AM_ISO$3
 70
     0
  3

  4
"
  5

  6

  7

 40
1.0
 41
3.5
 42
1.0
 43
10.0
 44
1.0
 45
0.0
 46
0.0
 47
0.1
 48
0.1
140
3.5
141
0.0
142
0.0
143
0.0393701
144
1.0
145
0.0
146
0.71
147
1.5
 71
     0
 72
     0
 73
     0
 74
     1
 75
     0
 76
     0
 77
     1
 78
     8
170
     0
171
     2
172
     0
173
     0
174
     0
175
     0
176
   256
177
   256
178
     2
  0
DIMSTYLE
  2
AM_ISO$4
 70
     0
  3

  4
"
  5

  6

  7

 40
1.0
 41
3.5
 42
1.0
 43
10.0
 44
1.0
 45
0.0
 46
0.0
 47
0.1
 48
0.1
140
3.5
141
0.0
142
0.0
143
0.0393701
144
1.0
145
0.0
146
0.71
147
1.5
 71
     0
 72
     0
 73
     0
 74
     1
 75
     0
 76
     0
 77
     1
 78
     8
170
     0
171
     2
172
     0
173
     0
174
     0
175
     0
176
   256
177
   256
178
     2
  0
DIMSTYLE
  2
AM_ISO$6
 70
     0
  3

  4
"
  5

  6

  7

 40
1.0
 41
3.5
 42
1.0
 43
10.0
 44
1.0
 45
0.0
 46
0.0
 47
0.1
 48
0.1
140
3.5
141
0.0
142
0.0
143
0.0393701
144
1.0
145
0.0
146
0.71
147
1.5
 71
     0
 72
     0
 73
     0
 74
     0
 75
     0
 76
     0
 77
     0
 78
     8
170
     0
171
     2
172
     1
173
     0
174
     0
175
     0
176
   256
177
   256
178
     2
  0
DIMSTYLE
  2
AM_ISO$7
 70
     0
  3

  4
"
  5

  6

  7

 40
1.0
 41
3.5
 42
1.0
 43
10.0
 44
1.0
 45
0.0
 46
0.0
 47
0.1
 48
0.1
140
3.5
141
0.0
142
0.0
143
0.0393701
144
1.0
145
0.0
146
0.71
147
1.5
 71
     0
 72
     0
 73
     0
 74
     0
 75
     0
 76
     0
 77
     1
 78
     8
170
     0
171
     2
172
     1
173
     0
174
     0
175
     0
176
   256
177
   256
178
     2
  0
DIMSTYLE
  2
AM_ISO$SF
 70
     0
  3

  4
"
  5

  6

  7

 40
1.0
 41
3.5
 42
1.0
 43
10.0
 44
1.0
 45
0.0
 46
0.0
 47
0.1
 48
0.1
140
3.5
141
0.0
142
0.0
143
0.0393701
144
1.0
145
0.0
146
0.71
147
1.5
 71
     0
 72
     0
 73
     0
 74
     0
 75
     1
 76
     1
 77
     1
 78
     8
170
     0
171
     2
172
     1
173
     0
174
     0
175
     0
176
   256
177
   256
178
     2
  0
DIMSTYLE
  2
AM_ISO$SH
 70
     0
  3

  4
"
  5

  6
GENAXEH
  7

 40
1.0
 41
3.5
 42
1.0
 43
10.0
 44
1.0
 45
0.0
 46
0.0
 47
0.1
 48
0.1
140
3.5
141
0.0
142
0.0
143
0.0393701
144
2.0
145
0.0
146
0.71
147
1.5
 71
     0
 72
     0
 73
     0
 74
     0
 75
     1
 76
     1
 77
     1
 78
     8
170
     0
171
     2
172
     1
173
     1
174
     0
175
     0
176
   256
177
   256
178
     2
  0
DIMSTYLE
  2
STANDARD
 70
     0
  3

  4

  5

  6

  7

 40
1.0
 41
0.18
 42
0.0625
 43
0.38
 44
0.18
 45
0.0
 46
0.0
 47
0.0
 48
0.0
140
0.18
141
0.09
142
0.0
143
25.399999999999999
144
1.0
145
0.0
146
1.0
147
0.09
 71
     0
 72
     0
 73
     1
 74
     1
 75
     0
 76
     0
 77
     0
 78
     0
170
     0
171
     2
172
     0
173
     0
174
     0
175
     0
176
     0
177
     0
178
     0
  0
ENDTAB
  0
ENDSEC
  0
SECTION
  2
BLOCKS
  0
BLOCK
  8
0
  2
$MODEL_SPACE
 70
     0
 10
0.0
 20
0.0
 30
0.0
  3
$MODEL_SPACE
  1

  0
ENDBLK
  5
21
  8
0
  0
BLOCK
 67
     1
  8
0
  2
$PAPER_SPACE
 70
     0
 10
0.0
 20
0.0
 30
0.0
  3
$PAPER_SPACE
  1

  0
ENDBLK
  5
133E6
 67
     1
  8
0
  0
BLOCK
  8
0
  2
_OPEN30
 70
     0
 10
0.0
 20
0.0
 30
0.0
  3
_OPEN30
  1

  0
LINE
  5
93
  8
0
  6
BYBLOCK
 62
     0
 10
-1.0
 20
0.26794919
 30
0.0
 11
0.0
 21
0.0
 31
0.0
  0
LINE
  5
94
  8
0
  6
BYBLOCK
 62
     0
 10
0.0
 20
0.0
 30
0.0
 11
-1.0
 21
-0.26794919
 31
0.0
  0
LINE
  5
95
  8
0
  6
BYBLOCK
 62
     0
 10
0.0
 20
0.0
 30
0.0
 11
-1.0
 21
0.0
 31
0.0
  0
ENDBLK
  5
97
  8
0
  0
BLOCK
  8
0
  2
*U1
 70
     1
 10
0.0
 20
0.0
 30
0.0
  3
*U1
  1

  0
ENDBLK
  5
4805
  8
0
  0
BLOCK
  8
0
  2
GENAXEH
 70
     0
 10
0.0
 20
0.0
 30
0.0
  3
GENAXEH
  1

  0
LINE
  5
483A
  8
0
 10
-1.0
 20
0.0
 30
0.0
 11
1.0
 21
0.0
 31
0.0
  0
ENDBLK
  5
483C
  8
0
  0
BLOCK
  8
0
  2
*U19
 70
     1
 10
0.0
 20
0.0
 30
0.0
  3
*U19
  1

  0
TEXT
  5
1343B
  8
外形
 62
     0
 10
210.08551136363641
 20
486.70140956906118
 30
0.0
 40
3.5
  1
17.9
  7
TEXT35
  0
ENDBLK
  5
1343D
  8
0
  0
BLOCK
  8
0
  2
*U20
 70
     1
 10
0.0
 20
0.0
 30
0.0
  3
*U20
  1

  0
TEXT
  5
1343F
  8
外形
 62
     0
 10
208.91477272727269
 20
496.52657130150698
 30
0.0
 40
3.5
  1
26.5
  7
TEXT35
  0
ENDBLK
  5
13441
  8
0
  0
BLOCK
  8
0
  2
*U21
 70
     1
 10
0.0
 20
0.0
 30
0.0
  3
*U21
  1

  0
TEXT
  5
13443
  8
外形
 62
     0
 10
-91.08522727272728
 20
496.52657130150698
 30
0.0
 40
3.5
  1
26.5
  7
TEXT35
  0
ENDBLK
  5
13445
  8
0
  0
BLOCK
  8
0
  2
*U22
 70
     1
 10
0.0
 20
0.0
 30
0.0
  3
*U22
  1

  0
TEXT
  5
13447
  8
外形
 62
     0
 10
-89.914488636363615
 20
486.7014095690613
 30
0.0
 40
3.5
  1
17.9
  7
TEXT35
  0
ENDBLK
  5
13449
  8
0
  0
BLOCK
  8
0
  2
*U23
 70
     1
 10
0.0
 20
0.0
 30
0.0
  3
*U23
  1

  0
TEXT
  5
13484
  8
外形
 62
     0
 10
151.66731370345039
 20
170.3198882577517
 30
0.0
 40
3.5
  1
R80
  7
TEXT35
  0
ENDBLK
  5
13486
  8
0
  0
BLOCK
  8
0
  2
*U24
 70
     1
 10
0.0
 20
0.0
 30
0.0
  3
*U24
  1

  0
TEXT
  5
13488
  8
外形
 62
     0
 10
322.91602614868049
 20
181.52320950274941
 30
0.0
 40
3.5
  1
R80
  7
TEXT35
  0
ENDBLK
  5
1348A
  8
0
  0
BLOCK
  8
0
  2
*U25
 70
     1
 10
0.0
 20
0.0
 30
0.0
  3
*U25
  1

  0
TEXT
  5
1348C
  8
外形
 62
     0
 10
428.12810886307318
 20
91.578124999999872
 30
0.0
 40
3.5
  1
(163.78)
 50
90.0
  7
TEXT35
  0
ENDBLK
  5
1348E
  8
0
  0
BLOCK
  8
0
  2
*U26
 70
     1
 10
0.0
 20
0.0
 30
0.0
  3
*U26
  1

  0
TEXT
  5
13490
  8
外形
 62
     0
 10
477.8254900914655
 20
188.68693243571701
 30
0.0
 40
3.5
  1
(65.4)
  7
TEXT35
  0
ENDBLK
  5
13492
  8
0
  0
BLOCK
  8
0
  2
*U27
 70
     1
 10
0.0
 20
0.0
 30
0.0
  3
*U27
  1

  0
TEXT
  5
13494
  8
外形
 62
     0
 10
647.42471590909054
 20
66.181469183076501
 30
0.0
 40
3.5
  1
80
  7
TEXT35
  0
ENDBLK
  5
13496
  8
0
  0
BLOCK
  8
0
  2
*U28
 70
     1
 10
0.0
 20
0.0
 30
0.0
  3
*U28
  1

  0
TEXT
  5
13498
  8
外形
 62
     0
 10
701.72416278061598
 20
97.454545454545354
 30
0.0
 40
3.5
  1
40
 50
90.0
  7
TEXT35
  0
ENDBLK
  5
1349A
  8
0
  0
ENDSEC
  0
SECTION
  2
ENTITIES
  0
POLYLINE
  5
12C5E
  8
外形
 66
     1
 10
0.0
 20
0.0
 30
0.0
 70
     1
  0
VERTEX
  5
1344A
  8
外形
 10
665.99999999999955
 20
103.9999999999998
 30
0.0
  0
VERTEX
  5
1344B
  8
外形
 10
674.49999999999955
 20
103.9999999999998
 30
0.0
 42
-0.4142135623730951
  0
VERTEX
  5
1344C
  8
外形
 10
675.49999999999955
 20
102.9999999999998
 30
0.0
  0
VERTEX
  5
1344D
  8
外形
 10
675.49999999999955
 20
95.999999999999787
 30
0.0
 42
-0.4142135623730951
  0
VERTEX
  5
1344E
  8
外形
 10
674.49999999999955
 20
94.999999999999758
 30
0.0
  0
VERTEX
  5
1344F
  8
外形
 10
665.99999999999955
 20
94.999999999999758
 30
0.0
 42
-0.4142135623730951
  0
VERTEX
  5
13450
  8
外形
 10
664.99999999999955
 20
95.999999999999787
 30
0.0
  0
VERTEX
  5
13451
  8
外形
 10
664.99999999999955
 20
102.9999999999998
 30
0.0
 42
-0.4142135623730951
  0
SEQEND
  5
13452
  8
外形
  0
POLYLINE
  5
12D61
  8
外形
 66
     1
 10
0.0
 20
0.0
 30
0.0
 70
     1
  0
VERTEX
  5
13453
  8
外形
 10
633.99999999999955
 20
103.9999999999998
 30
0.0
  0
VERTEX
  5
13454
  8
外形
 10
625.49999999999955
 20
103.9999999999998
 30
0.0
 42
0.4142135623730951
  0
VERTEX
  5
13455
  8
外形
 10
624.49999999999955
 20
102.9999999999998
 30
0.0
  0
VERTEX
  5
13456
  8
外形
 10
624.49999999999955
 20
95.999999999999787
 30
0.0
 42
0.4142135623730951
  0
VERTEX
  5
13457
  8
外形
 10
625.49999999999955
 20
94.999999999999758
 30
0.0
  0
VERTEX
  5
13458
  8
外形
 10
633.99999999999955
 20
94.999999999999758
 30
0.0
 42
0.4142135623730951
  0
VERTEX
  5
13459
  8
外形
 10
634.99999999999955
 20
95.999999999999787
 30
0.0
  0
VERTEX
  5
1345A
  8
外形
 10
634.99999999999955
 20
102.9999999999998
 30
0.0
 42
0.4142135623730951
  0
SEQEND
  5
1345B
  8
外形
  0
CIRCLE
  5
12FB6
  8
外形
 10
619.99999999999955
 20
109.9999999999999
 30
0.0
 40
0.95
  0
CIRCLE
  5
12FB7
  8
外形
 10
629.49999999999955
 20
109.9999999999999
 30
0.0
 40
0.95
  0
CIRCLE
  5
12FB8
  8
外形
 10
619.99999999999955
 20
89.999999999999758
 30
0.0
 40
0.95
  0
CIRCLE
  5
12FB9
  8
外形
 10
629.49999999999977
 20
90.000000628317935
 30
0.0
 40
0.95
  0
CIRCLE
  5
12FBA
  8
外形
 10
670.49999999999955
 20
109.9999999999999
 30
0.0
 40
0.95
  0
CIRCLE
  5
12FBB
  8
外形
 10
679.99999999999966
 20
109.9999999999999
 30
0.0
 40
0.95
  0
CIRCLE
  5
12FBC
  8
外形
 10
679.99999999999966
 20
89.999999999999758
 30
0.0
 40
0.95
  0
CIRCLE
  5
12FBD
  8
外形
 10
670.49999999999955
 20
89.999999999999758
 30
0.0
 40
0.95
  0
CIRCLE
  5
12FBE
  8
外形
 10
637.99999999999955
 20
105.9999999999996
 30
0.0
 40
1.5
  0
CIRCLE
  5
12FBF
  8
外形
 10
661.99999999999955
 20
105.9999999999998
 30
0.0
 40
1.5
  0
CIRCLE
  5
12FC0
  8
外形
 10
649.99999999999955
 20
84.999999999999758
 30
0.0
 40
1.5
  0
CIRCLE
  5
12FC1
  8
外形
 10
649.99999999999955
 20
99.999999999999787
 30
0.0
 40
6.5
  0
CIRCLE
  5
12FC2
  8
外形
 10
632.39998839999964
 20
86.999999999999773
 30
0.0
 40
0.95
  0
CIRCLE
  5
12FC3
  8
外形
 10
641.89998839999964
 20
86.999999999999773
 30
0.0
 40
0.95
  0
CIRCLE
  5
12FC4
  8
外形
 10
667.60001159999968
 20
86.999999999999773
 30
0.0
 40
0.95
  0
CIRCLE
  5
12FC5
  8
外形
 10
658.10001159999956
 20
86.999999999999773
 30
0.0
 40
0.95
  0
LINE
  5
12FF1
  8
外形
 10
72.199999999999676
 20
127.0999999999998
 30
0.0
 11
82.79999999999967
 21
127.0999999999998
 31
0.0
  0
LINE
  5
12FF2
  8
外形
 10
72.199999999999676
 20
137.69999999999959
 30
0.0
 11
82.79999999999967
 21
137.69999999999959
 31
0.0
  0
LINE
  5
12FF3
  8
外形
 10
72.199999999999676
 20
137.69999999999959
 30
0.0
 11
72.199999999999676
 21
127.0999999999997
 31
0.0
  0
LINE
  5
12FF4
  8
外形
 10
82.79999999999967
 20
137.69999999999959
 30
0.0
 11
82.79999999999967
 21
127.0999999999997
 31
0.0
  0
CIRCLE
  5
12FF5
  8
外形
 10
99.999999999999687
 20
99.999999999999787
 30
0.0
 40
8.8000000000000007
  0
CIRCLE
  5
12FF6
  8
外形
 10
44.99999999999968
 20
63.999999999999773
 30
0.0
 40
8.8000000000000007
  0
CIRCLE
  5
12FF7
  8
外形
 10
154.99999999999969
 20
63.999999999999773
 30
0.0
 40
8.8000000000000007
  0
CIRCLE
  5
12FF8
  8
外形
 10
140.99999999999969
 20
157.9999999999998
 30
0.0
 40
1.5
  0
CIRCLE
  5
12FF9
  8
外形
 10
111.9999999999996
 20
105.9999999999998
 30
0.0
 40
1.5
  0
CIRCLE
  5
12FFA
  8
外形
 10
99.999999999999687
 20
84.999999999999758
 30
0.0
 40
1.5
  0
CIRCLE
  5
12FFB
  8
外形
 10
87.999999999999673
 20
105.9999999999996
 30
0.0
 40
1.5
  0
CIRCLE
  5
12FFC
  8
外形
 10
160.49999999999969
 20
80.899999999999864
 30
0.0
 40
1.5
  0
CIRCLE
  5
12FFD
  8
外形
 10
120.4999999999997
 20
88.399999999999864
 30
0.0
 40
1.5
  0
CIRCLE
  5
12FFE
  8
外形
 10
79.499999999999687
 20
80.899999999999864
 30
0.0
 40
1.5
  0
CIRCLE
  5
12FFF
  8
外形
 10
39.499999999999687
 20
88.399999999999864
 30
0.0
 40
1.5
  0
CIRCLE
  5
13000
  8
外形
 10
151.9999999999996
 20
119.4999999999998
 30
0.0
 40
3.5
  0
CIRCLE
  5
13001
  8
外形
 10
151.9999999999996
 20
144.4999999999998
 30
0.0
 40
3.5
  0
CIRCLE
  5
13002
  8
外形
 10
119.9999999999996
 20
166.4999999999998
 30
0.0
 40
3.5
  0
CIRCLE
  5
13003
  8
外形
 10
79.999999999999673
 20
166.4999999999998
 30
0.0
 40
3.5
  0
CIRCLE
  5
13004
  8
外形
 10
47.999999999999673
 20
144.4999999999998
 30
0.0
 40
3.5
  0
CIRCLE
  5
13005
  8
外形
 10
47.999999999999673
 20
119.4999999999998
 30
0.0
 40
3.5
  0
POLYLINE
  5
13006
  8
外形
 66
     1
 10
0.0
 20
0.0
 30
0.0
 70
     1
  0
VERTEX
  5
1345C
  8
外形
 10
46.499999999999673
 20
112.4999999999998
 30
0.0
  0
VERTEX
  5
1345D
  8
外形
 10
49.499999999999673
 20
112.4999999999998
 30
0.0
  0
VERTEX
  5
1345E
  8
外形
 10
49.499999999999673
 20
110.9999999999997
 30
0.0
  0
VERTEX
  5
1345F
  8
外形
 10
46.499999999999673
 20
110.9999999999997
 30
0.0
  0
SEQEND
  5
13460
  8
外形
  0
POLYLINE
  5
13007
  8
外形
 66
     1
 10
0.0
 20
0.0
 30
0.0
 70
     1
  0
VERTEX
  5
13461
  8
外形
 10
46.499999999999673
 20
137.4999999999998
 30
0.0
  0
VERTEX
  5
13462
  8
外形
 10
49.499999999999673
 20
137.4999999999998
 30
0.0
  0
VERTEX
  5
13463
  8
外形
 10
49.499999999999673
 20
135.99999999999969
 30
0.0
  0
VERTEX
  5
13464
  8
外形
 10
46.499999999999673
 20
135.99999999999969
 30
0.0
  0
SEQEND
  5
13465
  8
外形
  0
POLYLINE
  5
13008
  8
外形
 66
     1
 10
0.0
 20
0.0
 30
0.0
 70
     1
  0
VERTEX
  5
13466
  8
外形
 10
72.999999999999673
 20
167.99999999999969
 30
0.0
  0
VERTEX
  5
13467
  8
外形
 10
71.499999999999673
 20
167.99999999999969
 30
0.0
  0
VERTEX
  5
13468
  8
外形
 10
71.499999999999673
 20
164.99999999999969
 30
0.0
  0
VERTEX
  5
13469
  8
外形
 10
72.999999999999673
 20
164.99999999999969
 30
0.0
  0
SEQEND
  5
1346A
  8
外形
  0
POLYLINE
  5
13009
  8
外形
 66
     1
 10
0.0
 20
0.0
 30
0.0
 70
     1
  0
VERTEX
  5
1346B
  8
外形
 10
112.9999999999997
 20
167.99999999999969
 30
0.0
  0
VERTEX
  5
1346C
  8
外形
 10
111.4999999999996
 20
167.99999999999969
 30
0.0
  0
VERTEX
  5
1346D
  8
外形
 10
111.4999999999996
 20
164.99999999999969
 30
0.0
  0
VERTEX
  5
1346E
  8
外形
 10
112.9999999999997
 20
164.99999999999969
 30
0.0
  0
SEQEND
  5
1346F
  8
外形
  0
POLYLINE
  5
1300A
  8
外形
 66
     1
 10
0.0
 20
0.0
 30
0.0
 70
     1
  0
VERTEX
  5
13470
  8
外形
 10
150.4999999999996
 20
151.49999999999969
 30
0.0
  0
VERTEX
  5
13471
  8
外形
 10
153.4999999999996
 20
151.49999999999969
 30
0.0
  0
VERTEX
  5
13472
  8
外形
 10
153.4999999999996
 20
152.9999999999998
 30
0.0
  0
VERTEX
  5
13473
  8
外形
 10
150.4999999999996
 20
152.9999999999998
 30
0.0
  0
SEQEND
  5
13474
  8
外形
  0
POLYLINE
  5
1300B
  8
外形
 66
     1
 10
0.0
 20
0.0
 30
0.0
 70
     1
  0
VERTEX
  5
13475
  8
外形
 10
153.4999999999996
 20
126.4999999999997
 30
0.0
  0
VERTEX
  5
13476
  8
外形
 10
150.4999999999996
 20
126.4999999999997
 30
0.0
  0
VERTEX
  5
13477
  8
外形
 10
150.4999999999996
 20
127.9999999999998
 30
0.0
  0
VERTEX
  5
13478
  8
外形
 10
153.4999999999996
 20
127.9999999999998
 30
0.0
  0
SEQEND
  5
13479
  8
外形
  0
LINE
  5
1300C
  8
外形
 10
97.199999999999704
 20
66.072094380863746
 30
0.0
 11
97.199999999999704
 21
23.218752289377111
 31
0.0
  0
ARC
  5
1300D
  8
外形
 10
97.69999999999969
 20
66.072094380863746
 30
0.0
 40
0.5
 50
120.0
 51
180.0
  0
LINE
  5
1300E
  8
外形
 10
102.7999999999997
 20
66.072094380863746
 30
0.0
 11
102.7999999999996
 21
23.218752289377111
 31
0.0
  0
ARC
  5
1300F
  8
外形
 10
102.2999999999997
 20
66.072094380863746
 30
0.0
 40
0.5
 50
0.0
 51
59.999999999999993
  0
ARC
  5
13010
  8
外形
 10
99.999999999999687
 20
99.999999999999787
 30
0.0
 40
79.999999999999986
 50
18.945905798564379
 51
161.05409420143559
  0
ARC
  5
13011
  8
外形
 10
172.8285658241322
 20
124.9999999999998
 30
0.0
 40
3.0
 50
270.0
 51
18.945905798564379
  0
ARC
  5
13012
  8
外形
 10
27.171434175867208
 20
124.9999999999998
 30
0.0
 40
3.0
 50
161.05409420143559
 51
270.0
  0
ARC
  5
13013
  8
外形
 10
99.999999999999687
 20
99.999999999999787
 30
0.0
 40
79.999999999999986
 50
198.94590579856441
 51
265.68012239939532
  0
ARC
  5
13014
  8
外形
 10
94.19999999999969
 20
23.218752289377111
 30
0.0
 40
3.0
 50
265.68012239939532
 51
0.0
  0
ARC
  5
13015
  8
外形
 10
27.171434175867191
 20
74.999999999999773
 30
0.0
 40
3.0
 50
90.0
 51
198.9459057985643
  0
ARC
  5
13016
  8
外形
 10
99.999999999999687
 20
99.999999999999787
 30
0.0
 40
79.999999999999986
 50
274.31987760060468
 51
341.05409420143559
  0
ARC
  5
13017
  8
外形
 10
105.7999999999996
 20
23.218752289377111
 30
0.0
 40
3.0
 50
180.0
 51
274.31987760060429
  0
ARC
  5
13018
  8
外形
 10
172.82856582413211
 20
74.999999999999773
 30
0.0
 40
3.0
 50
341.05409420143542
 51
90.000000000000398
  0
LINE
  5
13019
  8
外形
 10
35.499999999999673
 20
113.9999999999997
 30
0.0
 11
35.499999999999687
 21
85.999999999999787
 31
0.0
  0
ARC
  5
1301A
  8
外形
 10
27.49999999999968
 20
113.9999999999997
 30
0.0
 40
8.0
 50
0.0
 51
90.0
  0
LINE
  5
1301B
  8
外形
 10
164.4999999999996
 20
113.9999999999997
 30
0.0
 11
164.49999999999969
 21
85.999999999999787
 31
0.0
  0
ARC
  5
1301C
  8
外形
 10
172.4999999999996
 20
113.9999999999997
 30
0.0
 40
8.0
 50
90.0
 51
180.0
  0
LINE
  5
1301D
  8
外形
 10
27.49999999999968
 20
121.9999999999997
 30
0.0
 11
27.171434175867208
 21
121.9999999999997
 31
0.0
  0
LINE
  5
1301E
  8
外形
 10
27.49999999999968
 20
77.999999999999773
 30
0.0
 11
27.171434175867191
 21
77.999999999999773
 31
0.0
  0
ARC
  5
1301F
  8
外形
 10
27.49999999999968
 20
85.999999999999787
 30
0.0
 40
8.0
 50
270.0
 51
0.0
  0
LINE
  5
13020
  8
外形
 10
172.4999999999996
 20
121.9999999999997
 30
0.0
 11
172.8285658241322
 21
121.9999999999997
 31
0.0
  0
LINE
  5
13021
  8
外形
 10
172.49999999999969
 20
77.999999999999773
 30
0.0
 11
172.82856582413211
 21
77.999999999999773
 31
0.0
  0
ARC
  5
13022
  8
外形
 10
172.49999999999969
 20
85.999999999999787
 30
0.0
 40
8.0
 50
180.0
 51
270.0
  0
CIRCLE
  5
13024
  8
外形
 10
58.999999999999659
 20
157.99999999999989
 30
0.0
 40
1.5
  0
CIRCLE
  5
13025
  8
外形
 10
140.99999999999969
 20
41.999999999999773
 30
0.0
 40
1.5
  0
CIRCLE
  5
13026
  8
外形
 10
58.999999999999659
 20
41.999999999999659
 30
0.0
 40
1.5
  0
LINE
  5
13027
  8
外形
 10
100.2499999999996
 20
67.83301270189213
 30
0.0
 11
102.5499999999997
 21
66.505107082756012
 31
0.0
  0
ARC
  5
13028
  8
外形
 10
99.999999999999659
 20
67.399999999999864
 30
0.0
 40
0.5
 50
59.999999999999552
 51
120.0000000000004
  0
LINE
  5
13029
  8
外形
 10
99.749999999999645
 20
67.83301270189213
 30
0.0
 11
97.449999999999676
 21
66.505107082756012
 31
0.0
  0
CIRCLE
  5
13054
  8
外形
 10
299.9999999999996
 20
99.999999999999787
 30
0.0
 40
3.5
  0
CIRCLE
  5
13055
  8
外形
 10
244.99999999999969
 20
63.999999999999773
 30
0.0
 40
3.5
  0
CIRCLE
  5
13056
  8
外形
 10
354.99999999999972
 20
63.999999999999773
 30
0.0
 40
3.5
  0
ARC
  5
13057
  8
外形
 10
299.9999999999996
 20
99.999999999999787
 30
0.0
 40
79.999999999999986
 50
18.945905798564389
 51
161.05409420143559
  0
ARC
  5
13058
  8
外形
 10
372.82856582413223
 20
124.9999999999998
 30
0.0
 40
3.0
 50
270.0
 51
18.945905798564379
  0
ARC
  5
13059
  8
外形
 10
227.1714341758672
 20
124.9999999999998
 30
0.0
 40
3.0
 50
161.05409420143559
 51
270.0
  0
LINE
  5
1305A
  8
外形
 10
235.4999999999996
 20
113.9999999999997
 30
0.0
 11
235.4999999999996
 21
85.999999999999787
 31
0.0
  0
ARC
  5
1305B
  8
外形
 10
227.49999999999969
 20
113.9999999999997
 30
0.0
 40
8.0
 50
0.0
 51
90.0
  0
LINE
  5
1305C
  8
外形
 10
364.4999999999996
 20
113.9999999999997
 30
0.0
 11
364.4999999999996
 21
85.999999999999787
 31
0.0
  0
ARC
  5
1305D
  8
外形
 10
372.4999999999996
 20
113.9999999999997
 30
0.0
 40
8.0
 50
90.0
 51
180.0
  0
LINE
  5
1305E
  8
外形
 10
227.49999999999969
 20
121.9999999999997
 30
0.0
 11
227.1714341758672
 21
121.9999999999997
 31
0.0
  0
LINE
  5
1305F
  8
外形
 10
227.49999999999969
 20
77.999999999999773
 30
0.0
 11
227.17143417586709
 21
77.999999999999773
 31
0.0
  0
ARC
  5
13060
  8
外形
 10
227.49999999999969
 20
85.999999999999787
 30
0.0
 40
8.0
 50
270.0
 51
0.0
  0
LINE
  5
13061
  8
外形
 10
372.4999999999996
 20
121.9999999999997
 30
0.0
 11
372.82856582413223
 21
121.9999999999997
 31
0.0
  0
LINE
  5
13062
  8
外形
 10
372.4999999999996
 20
77.999999999999773
 30
0.0
 11
372.82856582413223
 21
77.999999999999773
 31
0.0
  0
ARC
  5
13063
  8
外形
 10
372.4999999999996
 20
85.999999999999787
 30
0.0
 40
8.0
 50
180.0
 51
270.0
  0
ARC
  5
13064
  8
外形
 10
299.9999999999996
 20
99.999999999999787
 30
0.0
 40
79.999999999999986
 50
198.94590579856441
 51
341.05409420143559
  0
ARC
  5
13065
  8
外形
 10
372.82856582413223
 20
74.999999999999773
 30
0.0
 40
3.0
 50
341.05409420143542
 51
90.0
  0
ARC
  5
13066
  8
外形
 10
227.17143417586709
 20
74.999999999999773
 30
0.0
 40
3.0
 50
90.0
 51
198.9459057985643
  0
LINE
  5
13067
  8
外形
 10
314.99999999999972
 20
99.999999999999787
 30
0.0
 11
314.99999999999972
 21
124.0
 31
0.0
  0
LINE
  5
13068
  8
外形
 10
317.99999999999972
 20
127.0
 30
-0.0000000000000075
 11
335.49999999924478
 21
127.0
 31
-0.0000000000000508
  0
ARC
  5
13069
  8
外形
 10
317.99999999999972
 20
124.0
 30
0.0000000000009073
 40
3.0
 50
90.0
 51
180.0
  0
LINE
  5
1306A
  8
外形
 10
338.49999999924478
 20
124.0
 30
-0.0000000000000609
 11
338.49999999924478
 21
117.9999999999997
 31
-0.0000000000000603
  0
ARC
  5
1306B
  8
外形
 10
335.49999999924478
 20
124.0
 30
0.0000000000009542
 40
3.0
 50
0.0
 51
90.0
  0
LINE
  5
1306C
  8
外形
 10
337.49999999924478
 20
116.9999999999997
 30
-0.0000000000000447
 11
336.49999999999972
 21
116.9999999999997
 31
-0.0000000000000365
  0
ARC
  5
1306D
  8
外形
 10
336.49999999999972
 20
115.9999999999997
 30
0.0000000000041334
 40
1.0
 50
90.0
 51
180.0
  0
ARC
  5
1306E
  8
外形
 10
337.49999999924478
 20
117.9999999999997
 30
0.0000000000038112
 40
1.0
 50
270.0
 51
0.0
  0
LINE
  5
1306F
  8
外形
 10
335.49999999999972
 20
115.9999999999997
 30
-0.0000000000000267
 11
335.49999999999972
 21
99.999999999999787
 31
0.0
  0
CIRCLE
  5
13070
  8
外形
 10
244.99999999999969
 20
135.99999999999969
 30
0.0
 40
3.5
  0
CIRCLE
  5
13071
  8
外形
 10
354.99999999999972
 20
135.99999999999969
 30
0.0
 40
3.5
  0
POLYLINE
  5
13088
  8
外形
 66
     1
 10
0.0
 20
0.0
 30
0.0
 70
     1
  0
VERTEX
  5
1347A
  8
外形
 10
612.99999999999955
 20
119.9999999999997
 30
0.0
  0
VERTEX
  5
1347B
  8
外形
 10
686.99999999999955
 20
119.9999999999997
 30
0.0
 42
-0.4142135623730951
  0
VERTEX
  5
1347C
  8
外形
 10
689.99999999999955
 20
116.9999999999997
 30
0.0
  0
VERTEX
  5
1347D
  8
外形
 10
689.99999999999955
 20
82.999999999999773
 30
0.0
 42
-0.4142135623730951
  0
VERTEX
  5
1347E
  8
外形
 10
686.99999999999955
 20
79.999999999999773
 30
0.0
  0
VERTEX
  5
1347F
  8
外形
 10
612.99999999999955
 20
79.999999999999773
 30
0.0
 42
-0.4142135623730951
  0
VERTEX
  5
13480
  8
外形
 10
609.99999999999955
 20
82.999999999999773
 30
0.0
  0
VERTEX
  5
13481
  8
外形
 10
609.99999999999955
 20
116.9999999999997
 30
0.0
 42
-0.4142135623730951
  0
SEQEND
  5
13482
  8
外形
  0
LINE
  5
130D8
  8
外形
 10
314.99999999999972
 20
99.999999999999787
 30
0.0
 11
314.99999999999972
 21
75.999999999999545
 31
0.0
  0
LINE
  5
130D9
  8
外形
 10
317.99999999999972
 20
72.999999999999545
 30
-0.0000000000000075
 11
335.49999999924478
 21
72.999999999999545
 31
-0.0000000000000508
  0
ARC
  5
130DA
  8
外形
 10
317.99999999999972
 20
75.999999999999545
 30
0.0000000000009073
 40
3.0
 50
180.0
 51
270.0
  0
LINE
  5
130DB
  8
外形
 10
338.49999999924478
 20
75.999999999999545
 30
-0.0000000000000609
 11
338.49999999924478
 21
81.999999999999773
 31
-0.0000000000000603
  0
ARC
  5
130DC
  8
外形
 10
335.49999999924478
 20
75.999999999999545
 30
0.0000000000009542
 40
3.0
 50
270.0
 51
0.0
  0
LINE
  5
130DD
  8
外形
 10
337.49999999924478
 20
82.999999999999773
 30
-0.0000000000000447
 11
336.49999999999972
 21
82.999999999999773
 31
-0.0000000000000365
  0
ARC
  5
130DE
  8
外形
 10
336.49999999999972
 20
83.999999999999773
 30
0.0000000000041334
 40
1.0
 50
180.0
 51
270.0
  0
ARC
  5
130DF
  8
外形
 10
337.49999999924478
 20
81.999999999999773
 30
0.0000000000038112
 40
1.0
 50
0.0
 51
90.0
  0
LINE
  5
130E0
  8
外形
 10
335.49999999999972
 20
83.999999999999773
 30
-0.0000000000000267
 11
335.49999999999972
 21
99.999999999999787
 31
0.0
  0
LINE
  5
130E1
  8
外形
 10
284.9999999999996
 20
99.999999999999787
 30
0.0
 11
284.9999999999996
 21
124.0
 31
0.0
  0
LINE
  5
130E2
  8
外形
 10
281.99999999999972
 20
127.0
 30
-0.0000000000000075
 11
264.50000000075448
 21
127.0
 31
-0.0000000000000508
  0
ARC
  5
130E3
  8
外形
 10
281.99999999999972
 20
124.0
 30
0.0000000000009073
 40
3.0
 50
0.0
 51
90.0
  0
LINE
  5
130E4
  8
外形
 10
261.50000000075448
 20
124.0
 30
-0.0000000000000609
 11
261.50000000075448
 21
117.9999999999997
 31
-0.0000000000000603
  0
ARC
  5
130E5
  8
外形
 10
264.50000000075448
 20
124.0
 30
0.0000000000009542
 40
3.0
 50
90.0
 51
180.0
  0
LINE
  5
130E6
  8
外形
 10
262.50000000075448
 20
116.9999999999997
 30
-0.0000000000000447
 11
263.49999999999972
 21
116.9999999999997
 31
-0.0000000000000365
  0
ARC
  5
130E7
  8
外形
 10
263.49999999999972
 20
115.9999999999997
 30
0.0000000000041334
 40
1.0
 50
0.0
 51
90.0
  0
ARC
  5
130E8
  8
外形
 10
262.50000000075448
 20
117.9999999999997
 30
0.0000000000038112
 40
1.0
 50
180.0
 51
270.0
  0
LINE
  5
130E9
  8
外形
 10
264.4999999999996
 20
115.9999999999997
 30
-0.0000000000000267
 11
264.4999999999996
 21
99.999999999999787
 31
0.0
  0
LINE
  5
130EA
  8
外形
 10
284.9999999999996
 20
99.999999999999787
 30
0.0
 11
284.9999999999996
 21
75.999999999999545
 31
0.0
  0
LINE
  5
130EB
  8
外形
 10
281.99999999999972
 20
72.999999999999545
 30
-0.0000000000000075
 11
264.50000000075448
 21
72.999999999999545
 31
-0.0000000000000508
  0
ARC
  5
130EC
  8
外形
 10
281.99999999999972
 20
75.999999999999545
 30
0.0000000000009073
 40
3.0
 50
270.0
 51
0.0
  0
LINE
  5
130ED
  8
外形
 10
261.50000000075448
 20
75.999999999999545
 30
-0.0000000000000609
 11
261.50000000075448
 21
81.999999999999773
 31
-0.0000000000000603
  0
ARC
  5
130EE
  8
外形
 10
264.50000000075448
 20
75.999999999999545
 30
0.0000000000009542
 40
3.0
 50
180.0
 51
270.0
  0
LINE
  5
130EF
  8
外形
 10
262.50000000075448
 20
82.999999999999773
 30
-0.0000000000000447
 11
263.49999999999972
 21
82.999999999999773
 31
-0.0000000000000365
  0
ARC
  5
130F0
  8
外形
 10
263.49999999999972
 20
83.999999999999773
 30
0.0000000000041334
 40
1.0
 50
270.0
 51
0.0
  0
ARC
  5
130F1
  8
外形
 10
262.50000000075448
 20
81.999999999999773
 30
0.0000000000038112
 40
1.0
 50
90.0
 51
180.0
  0
LINE
  5
130F2
  8
外形
 10
264.4999999999996
 20
83.999999999999773
 30
-0.0000000000000267
 11
264.4999999999996
 21
99.999999999999787
 31
0.0
  0
LINE
  5
13281
  8
外形
 10
464.99999999999972
 20
99.999999999999787
 30
0.0
 11
464.99999999999972
 21
122.9960862234409
 31
0.0
  0
ARC
  5
13282
  8
外形
 10
467.99999999999972
 20
122.9960862234409
 30
-0.0000000000004599
 40
3.0
 50
90.010429768767423
 51
180.0
  0
LINE
  5
13283
  8
外形
 10
467.99945389858721
 20
125.9960861737364
 30
-0.0000000000000075
 11
485.49945389783232
 21
125.9992717653621
 31
-0.000000000000051
  0
ARC
  5
13284
  8
外形
 10
485.49999999924489
 20
122.99927181506651
 30
0.0000000000009529
 40
3.0
 50
0.0
 51
90.010429768767423
  0
LINE
  5
13285
  8
外形
 10
488.49999999924489
 20
122.99927181506651
 30
-0.0000000000000517
 11
488.49999999924489
 21
118.07036751682629
 31
-0.0000000000000332
  0
LINE
  5
13286
  8
外形
 10
488.09999999999962
 20
154.4069651859366
 30
0.0
 11
488.09999999999962
 21
162.23700908475499
 31
0.0
  0
ARC
  5
13287
  8
外形
 10
488.59999999999962
 20
162.23700908475499
 30
0.0
 40
0.5
 50
120.0000000000001
 51
180.0
  0
ARC
  5
13288
  8
外形
 10
487.49999999999977
 20
113.92963248317329
 30
-0.0000000000033395
 40
2.0
 50
123.6900675326324
 51
180.0
  0
LINE
  5
13289
  8
外形
 10
493.89999999999969
 20
162.23700908475499
 30
0.0
 11
493.89999999999969
 21
138.99999999999969
 31
-0.000000000000002
  0
ARC
  5
1328A
  8
外形
 10
493.39999999999969
 20
162.23700908475499
 30
0.0
 40
0.5
 50
0.0
 51
59.999999999999922
  0
LINE
  5
1328B
  8
外形
 10
485.49999999999972
 20
113.92963248317329
 30
0.0
 11
485.49999999999972
 21
99.999999999999787
 31
0.0
  0
ARC
  5
1328C
  8
外形
 10
449.99999999999977
 20
101.9999999999998
 30
0.0
 40
80.0
 50
34.785994032906089
 51
87.022255553754732
  0
ARC
  5
1328D
  8
外形
 10
514.06051826203066
 20
146.4999999999998
 30
0.0
 40
2.0
 50
270.0
 51
34.785994032906089
  0
ARC
  5
1328E
  8
外形
 10
453.99999999999972
 20
178.8960337078575
 30
0.0
 40
3.0
 50
87.022255553754732
 51
180.0
  0
LINE
  5
1328F
  8
外形
 10
450.99999999999977
 20
178.8960337078575
 30
0.0
 11
450.99999999999977
 21
169.88225099390829
 31
0.0
  0
LINE
  5
13290
  8
外形
 10
459.99999999999972
 20
99.999999999999787
 30
0.0
 11
459.99999999999972
 21
162.7042008431045
 31
0.0
  0
LINE
  5
13291
  8
外形
 10
495.99999999999977
 20
99.999999999999787
 30
0.0
 11
495.99999999999977
 21
125.1715728752535
 31
0.0
  0
ARC
  5
13292
  8
外形
 10
449.99999999999977
 20
101.9999999999998
 30
0.0
 40
64.0
 50
54.342002106855951
 51
69.216440404153374
  0
ARC
  5
13293
  8
外形
 10
471.99999999999972
 20
159.9655069847575
 30
0.0
 40
2.0
 50
69.216440404153374
 51
180.0
  0
ARC
  5
13294
  8
外形
 10
487.59999999999962
 20
154.4069651859366
 30
0.0
 40
0.5
 50
234.34200210685589
 51
0.0
  0
ARC
  5
13295
  8
外形
 10
449.99999999999977
 20
101.9999999999998
 30
0.0
 40
65.0
 50
84.355222447630055
 51
86.627713316569185
  0
ARC
  5
13296
  8
外形
 10
455.99999999999972
 20
162.7042008431045
 30
0.0
 40
4.0
 50
0.0
 51
84.355222447630055
  0
ARC
  5
13297
  8
外形
 10
453.99999999999972
 20
169.88225099390829
 30
0.0
 40
3.0
 50
180.0
 51
266.62771331656921
  0
LINE
  5
13298
  8
外形
 10
469.99999999999972
 20
137.99999999999969
 30
-0.0000000000000272
 11
469.99999999999972
 21
159.9655069847575
 31
0.0
  0
LINE
  5
13299
  8
外形
 10
471.99999999999972
 20
135.99999999999969
 30
-0.0000000000000278
 11
490.89999999999981
 21
135.99999999999969
 31
-0.0000000000000085
  0
ARC
  5
1329A
  8
外形
 10
490.89999999999981
 20
138.99999999999969
 30
0.0000000000000245
 40
3.0
 50
270.0
 51
0.0
  0
ARC
  5
1329B
  8
外形
 10
471.99999999999972
 20
137.99999999999969
 30
-0.0000000000006293
 40
2.0
 50
180.0
 51
270.0
  0
LINE
  5
1329C
  8
外形
 10
514.06051826203066
 20
144.4999999999998
 30
0.0
 11
504.99999999999977
 21
144.4999999999998
 31
0.0
  0
ARC
  5
1329D
  8
外形
 10
504.99999999999977
 20
137.4999999999998
 30
0.0
 40
7.0
 50
90.0
 51
180.0
  0
LINE
  5
1329E
  8
外形
 10
497.99999999999972
 20
137.4999999999998
 30
0.0
 11
497.99999999999972
 21
128.82842712474601
 31
0.0
  0
LINE
  5
1329F
  8
外形
 10
487.60940039188841
 20
116.40626692827951
 30
-0.0000000000000428
 11
486.39059960735608
 21
115.59373307172019
 31
-0.0000000000000181
  0
ARC
  5
132A0
  8
外形
 10
486.49999999924478
 20
118.07036751682629
 30
-0.0000000000007808
 40
2.0
 50
303.69006753263238
 51
0.0
  0
LINE
  5
132A2
  8
外形
 10
491.2499999999996
 20
164.05566243270241
 30
0.0
 11
493.64999999999969
 21
162.67002178664731
 31
0.0
  0
ARC
  5
132A3
  8
外形
 10
490.99999999999972
 20
163.62264973081011
 30
0.0
 40
0.5
 50
59.999999999999922
 51
120.0000000000001
  0
LINE
  5
132A4
  8
外形
 10
490.74999999999972
 20
164.05566243270241
 30
0.0
 11
488.34999999999968
 21
162.67002178664731
 31
0.0
  0
LINE
  5
132A5
  8
外形
 10
496.58578643762672
 20
126.58578643762669
 30
0.0
 11
497.41421356237282
 21
127.41421356237289
 31
0.0
  0
ARC
  5
132A6
  8
外形
 10
495.99999999999977
 20
128.82842712474601
 30
0.0
 40
2.0
 50
315.0
 51
0.0
  0
ARC
  5
132A7
  8
外形
 10
497.99999999999972
 20
125.1715728752535
 30
0.0
 40
2.0
 50
135.0
 51
180.0
  0
LINE
  5
132A8
  8
外形
 10
464.99999999999972
 20
99.999999999999787
 30
0.0
 11
464.99999999999972
 21
77.003913776558647
 31
0.0
  0
ARC
  5
132A9
  8
外形
 10
467.99999999999972
 20
77.003913776558647
 30
-0.0000000000004599
 40
3.0
 50
180.0
 51
269.98957023123262
  0
LINE
  5
132AA
  8
外形
 10
467.99945389858721
 20
74.003913826263101
 30
-0.0000000000000075
 11
485.49945389783232
 21
74.000728234637435
 31
-0.000000000000051
  0
ARC
  5
132AB
  8
外形
 10
485.49999999924489
 20
77.000728184932996
 30
0.0000000000009529
 40
3.0
 50
269.98957023123262
 51
0.0
  0
LINE
  5
132AC
  8
外形
 10
488.49999999924489
 20
77.000728184932996
 30
-0.0000000000000517
 11
488.49999999924489
 21
81.929632483173236
 31
-0.0000000000000332
  0
LINE
  5
132AD
  8
外形
 10
488.09999999999962
 20
45.593034814062882
 30
0.0
 11
488.09999999999962
 21
37.762990915244472
 31
0.0
  0
ARC
  5
132AE
  8
外形
 10
488.59999999999962
 20
37.762990915244472
 30
0.0
 40
0.5
 50
180.0
 51
240.0000000000004
  0
ARC
  5
132AF
  8
外形
 10
487.49999999999977
 20
86.070367516826195
 30
-0.0000000000033395
 40
2.0
 50
180.0
 51
236.30993246736591
  0
LINE
  5
132B0
  8
外形
 10
493.89999999999969
 20
37.762990915244472
 30
0.0
 11
493.89999999999969
 21
60.999999999999773
 31
-0.000000000000002
  0
ARC
  5
132B1
  8
外形
 10
493.39999999999969
 20
37.762990915244472
 30
0.0
 40
0.5
 50
299.9999999999996
 51
0.0
  0
LINE
  5
132B2
  8
外形
 10
485.49999999999972
 20
86.070367516826195
 30
0.0
 11
485.49999999999972
 21
99.999999999999787
 31
0.0
  0
ARC
  5
132B3
  8
外形
 10
449.99999999999977
 20
97.999999999999773
 30
0.0
 40
80.0
 50
272.9777444462452
 51
325.21400596708912
  0
ARC
  5
132B4
  8
外形
 10
514.06051826203066
 20
53.499999999999773
 30
0.0
 40
2.0
 50
325.21400596708912
 51
90.0
  0
ARC
  5
132B5
  8
外形
 10
453.99999999999972
 20
21.10396629214199
 30
0.0
 40
3.0
 50
180.0
 51
272.9777444462452
  0
LINE
  5
132B6
  8
外形
 10
450.99999999999977
 20
21.10396629214199
 30
0.0
 11
450.99999999999977
 21
30.117749006091231
 31
0.0
  0
LINE
  5
132B7
  8
外形
 10
459.99999999999972
 20
99.999999999999787
 30
0.0
 11
459.99999999999972
 21
37.295799156894986
 31
0.0
  0
LINE
  5
132B8
  8
外形
 10
495.99999999999977
 20
99.999999999999787
 30
0.0
 11
495.99999999999977
 21
74.828427124745986
 31
0.0
  0
ARC
  5
132B9
  8
外形
 10
449.99999999999977
 20
97.999999999999773
 30
0.0
 40
64.0
 50
290.78355959584678
 51
305.65799789314582
  0
ARC
  5
132BA
  8
外形
 10
471.99999999999972
 20
40.034493015241992
 30
0.0
 40
2.0
 50
180.0
 51
290.78355959584678
  0
ARC
  5
132BB
  8
外形
 10
487.59999999999962
 20
45.593034814062882
 30
0.0
 40
0.5
 50
0.0
 51
125.6579978931458
  0
ARC
  5
132BC
  8
外形
 10
449.99999999999977
 20
97.999999999999773
 30
0.0
 40
65.0
 50
273.37228668343079
 51
275.64477755236999
  0
ARC
  5
132BD
  8
外形
 10
455.99999999999972
 20
37.295799156894986
 30
0.0
 40
4.0
 50
275.64477755236999
 51
0.0
  0
ARC
  5
132BE
  8
外形
 10
453.99999999999972
 20
30.117749006091231
 30
0.0
 40
3.0
 50
93.372286683430843
 51
180.0
  0
LINE
  5
132BF
  8
外形
 10
469.99999999999972
 20
61.999999999999773
 30
-0.0000000000000272
 11
469.99999999999972
 21
40.034493015241992
 31
0.0
  0
LINE
  5
132C0
  8
外形
 10
471.99999999999972
 20
63.999999999999773
 30
-0.0000000000000278
 11
490.89999999999981
 21
63.999999999999773
 31
-0.0000000000000085
  0
ARC
  5
132C1
  8
外形
 10
490.89999999999981
 20
60.999999999999773
 30
0.0000000000000245
 40
3.0
 50
0.0
 51
90.0
  0
ARC
  5
132C2
  8
外形
 10
471.99999999999972
 20
61.999999999999773
 30
-0.0000000000006293
 40
2.0
 50
90.0
 51
180.0
  0
LINE
  5
132C3
  8
外形
 10
514.06051826203066
 20
55.499999999999773
 30
0.0
 11
504.99999999999977
 21
55.499999999999773
 31
0.0
  0
ARC
  5
132C4
  8
外形
 10
504.99999999999977
 20
62.499999999999773
 30
0.0
 40
7.0
 50
180.0
 51
270.0
  0
LINE
  5
132C5
  8
外形
 10
497.99999999999972
 20
62.499999999999773
 30
0.0
 11
497.99999999999972
 21
71.17157287525356
 31
0.0
  0
LINE
  5
132C6
  8
外形
 10
487.60940039188841
 20
83.593733071720067
 30
-0.0000000000000428
 11
486.39059960735608
 21
84.406266928279365
 31
-0.0000000000000181
  0
ARC
  5
132C7
  8
外形
 10
486.49999999924478
 20
81.929632483173236
 30
-0.0000000000007808
 40
2.0
 50
0.0
 51
56.309932467365932
  0
LINE
  5
132C9
  8
外形
 10
491.2499999999996
 20
35.944337567297111
 30
0.0
 11
493.64999999999969
 21
37.329978213352213
 31
0.0
  0
ARC
  5
132CA
  8
外形
 10
490.99999999999972
 20
36.377350269189378
 30
0.0
 40
0.5
 50
240.0000000000004
 51
299.9999999999996
  0
LINE
  5
132CB
  8
外形
 10
490.74999999999972
 20
35.944337567297111
 30
0.0
 11
488.34999999999968
 21
37.329978213352213
 31
0.0
  0
LINE
  5
132CC
  8
外形
 10
496.58578643762672
 20
73.414213562372879
 30
0.0
 11
497.41421356237282
 21
72.585786437626666
 31
0.0
  0
ARC
  5
132CD
  8
外形
 10
495.99999999999977
 20
71.17157287525356
 30
0.0
 40
2.0
 50
0.0
 51
44.999999999991921
  0
ARC
  5
132CE
  8
外形
 10
497.99999999999972
 20
74.828427124745986
 30
0.0
 40
2.0
 50
180.0
 51
224.9999999999919
  0
CIRCLE
  5
133D6
  8
外形
 10
340.99999999999972
 20
157.9999999999998
 30
0.0
 40
1.5
  0
CIRCLE
  5
133D7
  8
外形
 10
258.99999999999972
 20
157.99999999999989
 30
0.0
 40
1.5
  0
CIRCLE
  5
133D8
  8
外形
 10
340.99999999999972
 20
41.999999999999773
 30
0.0
 40
1.5
  0
CIRCLE
  5
133D9
  8
外形
 10
258.99999999999972
 20
41.999999999999659
 30
0.0
 40
1.5
  0
ENDSEC
  0
EOF
